Сергей Маврин

GlaVbuh

Ословед
Скачала несколько выпусков Железного Занавеса, если кому интересно, могу выложить:)

выкладывай) у меня в шаре давно лежит выпуск, "ликбез для гитаристов" где Маврик расказывает про то как он начинал и как придумывал соло в арийские годы
 

elle

Ословед
Вот,как и обещала:) Приятного прослушивания,правда сама еще этого сделать не успела))
железный занавес.rar 70.95 Мб 50.[108-111]
 

Spirit Tiger

Ословед
Самое норм как мне кажется это когда Маврин с Кипеловым в Арии были вот тогда музыка была ваще на пределе
 

elle

Ословед
Ценители творчества Маврика, есть у кого тексты его песен?
P.S. В частности, "Рожденные жить".
Вот нашла текст с табами
Код:
Рожденные Жить

 Am-G-Dm-C-Dm-Em-Am
 
|-------------------------|--------0-----------1-----|
|--------1-----------0----|--------1-----------3-----|
|--------2-----------0----|-----0-----0-----2-----2--|
|-----2-----2-----0-----0-|--------------0-----------|
|--0----------------------|--3-----------------------|
|--------------3----------|--------------------------|
                                                      
--------------------------|--------------------------|
--------1-----------0-----|--------------------------|
--------2-----------0-----|--------2-----2-----2-----|
-----2-----2-----0-----0--|--------3-----3-----3-----|
--0-----------------------|-----3-----3-----3-----3--|
--------------3-----------|--1-----------------------|
                                                  
--------------------------|--------0-----------1-----|
--------1-----------0-----|--------1-----------3-----|
--------2-----------0-----|-----0-----0-----2-----2--|
-----2-----2-----0-----0--|--------------0-----------|
--0-----------------------|--3-----------------------|
--------------3-----------|--------------------------|
                                                      
--------------------------|--------------------------|
--------1-----------0-----|--------------------------|
--------2-----------0-----|--------2-----2-----2-----|
-----2-----2-----0-----0--|--------3-----3-----3-----|
--0-----------------------|-----3-----3-----3-----3--|
--------------3-----------|--1-----------------------|

Am      Am7              Dm                 G    
Одни, столько лет, мы возводим замки и Храм,
C(E)     Dm               Am
Рождённые по воле рока жить.
Am      Am7          Dm                   G    
Богам веры нет. Снова каждый выберет сам
C(E)                    G                         Am
Свой путь, свой крест, свою судьбу и нить.

Припев:
Am                                      G
Не плачь, не жалей, не зови.
                    Dm                          Am
Слабому - плеть, вольному - воля.
Имя своё к Солнцу неси в тёплых ладонях.
У ветра дорогу спроси.
Сомнения прочь и прочь тревога.
Всё, как есть, прими и не вини ни Чёрта, ни Бога!
Смотри - новый день.
Тот же был сюжет, ну и пусть.
Он лишь мгновенье бесконечных сцен.
Смотри - свет и тень прошлых дней, а их не вернуть.
Они - частицы вечных перемен.
Припев:
Не плачь, не жалей, не зови.
Слабому - плеть, вольному - воля.
Имя своё к Солнцу неси в тёплых ладонях.
У ветра дорогу спроси.
Сомнения прочь и прочь тревога.
Всё, как есть, прими и не вини ни Чёрта, ни Бога!
Мечтать смысла нет - это путь к волшебным мирам,
В страну надежд изломанной души.
Проснись, столько лет
Мы возводим замки и Храм,
Рождённые по воле рока жить.
Припев:
Не плачь, не жалей, не зови.
Слабому - плеть, вольному - воля.
Имя своё к Солнцу неси в тёплых ладонях.
У ветра дорогу спроси.
Сомнения прочь и прочь тревога.
Всё, как есть, прими и не вини ни Чёрта, ни Бога!
 
Ну вобщем так: как я понял, прозодит раз в какое-то время слет музыкантов со всего мира и там они, можно сказать соревнуются в мастерстве игры. РПотив грановского выступал басист, до этого державшийся на первом месте (по-моему из металлики, хотя могу ошибаться) вот. И он не смог повторить бас-партию из "Торреро", разумеется в версии нашего любимого Алика.

Таким же образом и удалов попал в пятерку лучших ударников мира

Так вот: Сергею прямая дорога на мировые высоты!



бггггг, слет басистов;) письками там меряются?
 
У кого есть табы Маврина к гитарпро. Выложите. Заранее благодарен.
 

PowerShifter

Самец :)
Сергей Маврин-Новосибирск (21.02.2009)

ЧАСТЬ 1.flv 116.11 Мб
ЧАСТЬ 2.flv 111.87 Мб
ЧАСТЬ 3.flv 113.22 Мб
ЧАСТЬ 4.flv 118.86 Мб
ЧАСТЬ 5.flv 30.99 Мб
 
09:28, 7 октября 2009
Челябинск


ВНИМАНИЕ, КОЛЛЕГИ И ДРУЗЬЯ! ПРОСЬБА НЕ ОСТАВЛЯТЬ БЕЗ ВНИМАНИЯ ДАННУЮ ИНФОРМАЦИЮ И ДОНЕСТИ ЕЕ ДО ДРУЗЕЙ И ЗНАКОМЫХ!!! Концерт группы "Маврин" 14 октября в Челябинске отменен. Причина - непрофессиональная работа менеджмента группы в связи с которой дальнейшее сотрудничество стало невозможным. Изначально наша компания выступала в роли регионального промоутера и не несла ответственности за гастрольный тур группы "Маврин". Менеджмент группы в лице так называемого директора Виктории Бергер сам вышел на нашу фирму с просьбой проведения концерта, но в ходе подготовки мероприятия сторона артиста начала менять свои условия и в итоге отменила концерт. Как следствие, страдают фанаты группы, но московских гастролеров это не интересует, главный приоритет у них - это извлечение прибыли. Такое поведение ставит под угрозу репутацию нашей компании, которая, работая на шоу-рынке региона более 10 лет, только второй раз за все время отменяет мероприятие. И нам вдвойне это неприятно, так как мы понесли невосполнимые финансовые потери, связанные с расходами на рекламу концерта, аренду зала и т.д. Конечно, мы это переживем. А вот немногочисленным поклонникам данного коллектива отныне придется ездить на концерт кумира в другие города, поскольку в Челябинске вряд-ли ещё кто возьмется за организацию столь невыгодного и хлопотного концерта. Приносим свои извинения только за то, что хотели помочь группе донести свою музыку до людей!
КОЛЛЕГИ, ОПАСАЙТЕСЬ АФЕРИСТОВ И ПОДУМАЙТЕ ПРЕЖДЕ, ЧЕМ ИМЕТЬ ДЕЛО С ВИКТОРИЕЙ БЕРГЕР и группой "МАВРИН"!!! ЖЕЛАЮЩИЕ МОГУТ ЛИЧНО ВЫСКАЗАТЬСЯ, ПОСЕТИВ СТРАНИЦУ В.БЕРГЕР http://vkontakte.ru/id643790
С уважением, оргкомитет и лично Гарри Ананасов.
 
Сверху